  0
SECTION
  2
HEADER
  9
$ACADVER
  1
AC1015
  9
$ACADMAINTVER
 70
     6
  9
$DWGCODEPAGE
  3
ANSI_1254
  9
$INSBASE
 10
0.0
 20
0.0
 30
0.0
  9
$EXTMIN
 10
0.0
 20
0.0
 30
0.0
  9
$EXTMAX
 10
279.4
 20
215.9
 30
0.0
  9
$LIMMIN
 10
0.0
 20
0.0
  9
$LIMMAX
 10
279.4
 20
215.9
  9
$ORTHOMODE
 70
     0
  9
$REGENMODE
 70
     1
  9
$FILLMODE
 70
     1
  9
$QTEXTMODE
 70
     0
  9
$MIRRTEXT
 70
     1
  9
$LTSCALE
 40
1.0
  9
$ATTMODE
 70
     1
  9
$TEXTSIZE
 40
3.5
  9
$TRACEWID
 40
1.0
  9
$TEXTSTYLE
  7
Standard
  9
$CLAYER
  8
0
  9
$CELTYPE
  6
ByLayer
  9
$CECOLOR
 62
   256
  9
$CELTSCALE
 40
1.0
  9
$DISPSILH
 70
     0
  9
$DIMSCALE
 40
1.0
  9
$DIMASZ
 40
3.5
  9
$DIMEXO
 40
1.0
  9
$DIMDLI
 40
3.75
  9
$DIMRND
 40
0.0
  9
$DIMDLE
 40
0.0
  9
$DIMEXE
 40
1.0
  9
$DIMTP
 40
0.0
  9
$DIMTM
 40
0.0
  9
$DIMTXT
 40
3.5
  9
$DIMCEN
 40
2.5
  9
$DIMTSZ
 40
0.0
  9
$DIMTOL
 70
     0
  9
$DIMLIM
 70
     0
  9
$DIMTIH
 70
     1
  9
$DIMTOH
 70
     1
  9
$DIMSE1
 70
     0
  9
$DIMSE2
 70
     0
  9
$DIMTAD
 70
     1
  9
$DIMZIN
 70
     0
  9
$DIMBLK
  1

  9
$DIMASO
 70
     1
  9
$DIMSHO
 70
     1
  9
$DIMPOST
  1

  9
$DIMAPOST
  1

  9
$DIMALT
 70
     0
  9
$DIMALTD
 70
     3
  9
$DIMALTF
 40
0.0393700787
  9
$DIMLFAC
 40
1.0
  9
$DIMTOFL
 70
     1
  9
$DIMTVP
 40
0.0
  9
$DIMTIX
 70
     0
  9
$DIMSOXD
 70
     0
  9
$DIMSAH
 70
     0
  9
$DIMBLK1
  1

  9
$DIMBLK2
  1

  9
$DIMSTYLE
  2
ISO-25
  9
$DIMCLRD
 70
     0
  9
$DIMCLRE
 70
     0
  9
$DIMCLRT
 70
     0
  9
$DIMTFAC
 40
1.0
  9
$DIMGAP
 40
1.524
  9
$DIMJUST
 70
     0
  9
$DIMSD1
 70
     0
  9
$DIMSD2
 70
     0
  9
$DIMTOLJ
 70
     0
  9
$DIMTZIN
 70
     0
  9
$DIMALTZ
 70
     0
  9
$DIMALTTZ
 70
     0
  9
$DIMUPT
 70
     0
  9
$DIMDEC
 70
     2
  9
$DIMTDEC
 70
     2
  9
$DIMALTU
 70
     2
  9
$DIMALTTD
 70
     3
  9
$DIMTXSTY
  7
Standard
  9
$DIMAUNIT
 70
     0
  9
$DIMADEC
 70
     2
  9
$DIMALTRND
 40
0.0
  9
$DIMAZIN
 70
     0
  9
$DIMDSEP
 70
    44
  9
$DIMATFIT
 70
     3
  9
$DIMFRAC
 70
     0
  9
$DIMLDRBLK
  1

  9
$DIMLUNIT
 70
     2
  9
$DIMLWD
 70
    -2
  9
$DIMLWE
 70
    -2
  9
$DIMTMOVE
 70
     0
  9
$LUNITS
 70
     2
  9
$LUPREC
 70
     2
  9
$SKETCHINC
 40
1.0
  9
$FILLETRAD
 40
10.0
  9
$AUNITS
 70
     0
  9
$AUPREC
 70
     2
  9
$MENU
  1
.
  9
$ELEVATION
 40
0.0
  9
$PELEVATION
 40
0.0
  9
$THICKNESS
 40
0.0
  9
$LIMCHECK
 70
     0
  9
$CHAMFERA
 40
0.0
  9
$CHAMFERB
 40
0.0
  9
$CHAMFERC
 40
0.0
  9
$CHAMFERD
 40
0.0
  9
$SKPOLY
 70
     0
  9
$TDCREATE
 40
2458985.663551725
  9
$TDUCREATE
 40
2458985.538551725
  9
$TDUPDATE
 40
2458985.663552003
  9
$TDUUPDATE
 40
2458985.538552003
  9
$TDINDWG
 40
0.0000000116
  9
$TDUSRTIMER
 40
0.0000000116
  9
$USRTIMER
 70
     1
  9
$ANGBASE
 50
0.0
  9
$ANGDIR
 70
     0
  9
$PDMODE
 70
     0
  9
$PDSIZE
 40
-1.0
  9
$PLINEWID
 40
0.0
  9
$SPLFRAME
 70
     0
  9
$SPLINETYPE
 70
     6
  9
$SPLINESEGS
 70
     8
  9
$HANDSEED
  5
C2
  9
$SURFTAB1
 70
     6
  9
$SURFTAB2
 70
     6
  9
$SURFTYPE
 70
     6
  9
$SURFU
 70
     6
  9
$SURFV
 70
     6
  9
$UCSBASE
  2

  9
$UCSNAME
  2

  9
$UCSORG
 10
0.0
 20
0.0
 30
0.0
  9
$UCSXDIR
 10
1.0
 20
0.0
 30
0.0
  9
$UCSYDIR
 10
0.0
 20
1.0
 30
0.0
  9
$UCSORTHOREF
  2

  9
$UCSORTHOVIEW
 70
     0
  9
$UCSORGTOP
 10
0.0
 20
0.0
 30
0.0
  9
$UCSORGBOTTOM
 10
0.0
 20
0.0
 30
0.0
  9
$UCSORGLEFT
 10
0.0
 20
0.0
 30
0.0
  9
$UCSORGRIGHT
 10
0.0
 20
0.0
 30
0.0
  9
$UCSORGFRONT
 10
0.0
 20
0.0
 30
0.0
  9
$UCSORGBACK
 10
0.0
 20
0.0
 30
0.0
  9
$PUCSBASE
  2

  9
$PUCSNAME
  2

  9
$PUCSORG
 10
0.0
 20
0.0
 30
0.0
  9
$PUCSXDIR
 10
1.0
 20
0.0
 30
0.0
  9
$PUCSYDIR
 10
0.0
 20
1.0
 30
0.0
  9
$PUCSORTHOREF
  2

  9
$PUCSORTHOVIEW
 70
     0
  9
$PUCSORGTOP
 10
0.0
 20
0.0
 30
0.0
  9
$PUCSORGBOTTOM
 10
0.0
 20
0.0
 30
0.0
  9
$PUCSORGLEFT
 10
0.0
 20
0.0
 30
0.0
  9
$PUCSORGRIGHT
 10
0.0
 20
0.0
 30
0.0
  9
$PUCSORGFRONT
 10
0.0
 20
0.0
 30
0.0
  9
$PUCSORGBACK
 10
0.0
 20
0.0
 30
0.0
  9
$USERI1
 70
     0
  9
$USERI2
 70
     0
  9
$USERI3
 70
     0
  9
$USERI4
 70
     0
  9
$USERI5
 70
     0
  9
$USERR1
 40
0.0
  9
$USERR2
 40
0.0
  9
$USERR3
 40
0.0
  9
$USERR4
 40
0.0
  9
$USERR5
 40
0.0
  9
$WORLDVIEW
 70
     1
  9
$SHADEDGE
 70
     3
  9
$SHADEDIF
 70
    70
  9
$TILEMODE
 70
     1
  9
$MAXACTVP
 70
    64
  9
$PINSBASE
 10
0.0
 20
0.0
 30
0.0
  9
$PLIMCHECK
 70
     0
  9
$PEXTMIN
 10
1.0000000000E+20
 20
1.0000000000E+20
 30
1.0000000000E+20
  9
$PEXTMAX
 10
-1.0000000000E+20
 20
-1.0000000000E+20
 30
-1.0000000000E+20
  9
$PLIMMIN
 10
0.0
 20
0.0
  9
$PLIMMAX
 10
420.0
 20
297.0
  9
$UNITMODE
 70
     0
  9
$VISRETAIN
 70
     1
  9
$PLINEGEN
 70
     0
  9
$PSLTSCALE
 70
     1
  9
$TREEDEPTH
 70
  3020
  9
$CMLSTYLE
  2
Standard
  9
$CMLJUST
 70
     0
  9
$CMLSCALE
 40
20.0
  9
$PROXYGRAPHICS
 70
     1
  9
$MEASUREMENT
 70
     1
  9
$CELWEIGHT
370
    -1
  9
$ENDCAPS
280
     0
  9
$JOINSTYLE
280
     0
  9
$LWDISPLAY
290
     1
  9
$INSUNITS
 70
     4
  9
$HYPERLINKBASE
  1

  9
$STYLESHEET
  1

  9
$XEDIT
290
     1
  9
$CEPSNTYPE
380
     0
  9
$PSTYLEMODE
290
     1
  9
$FINGERPRINTGUID
  2
{3a465afd-f93d-41a9-bcca-7c657d48dc6a}
  9
$VERSIONGUID
  2
{FAEB1C32-E019-11D5-929B-00C0DF256EC4}
  9
$EXTNAMES
290
     1
  9
$PSVPSCALE
 40
0.0
  9
$OLESTARTUP
290
     0
  0
ENDSEC
  0
SECTION
  2
CLASSES
  0
CLASS
  1
ACDBDICTIONARYWDFLT
  2
AcDbDictionaryWithDefault
  3
ObjectDBX Classes
 90
        0
280
     0
281
     0
  0
CLASS
  1
VISUALSTYLE
  2
AcDbVisualStyle
  3
ObjectDBX Classes
 90
     4095
280
     0
281
     0
  0
CLASS
  1
MATERIAL
  2
AcDbMaterial
  3
ObjectDBX Classes
 90
     1153
280
     0
281
     0
  0
CLASS
  1
SCALE
  2
AcDbScale
  3
ObjectDBX Classes
 90
     1153
280
     0
281
     0
  0
CLASS
  1
TABLESTYLE
  2
AcDbTableStyle
  3
ObjectDBX Classes
 90
     4095
280
     0
281
     0
  0
CLASS
  1
MLEADERSTYLE
  2
AcDbMLeaderStyle
  3
ACDB_MLEADERSTYLE_CLASS
 90
     4095
280
     0
281
     0
  0
CLASS
  1
SUN
  2
AcDbSun
  3
SCENEOE
 90
     1153
280
     0
281
     0
  0
CLASS
  1
ACDBPLACEHOLDER
  2
AcDbPlaceHolder
  3
ObjectDBX Classes
 90
        0
280
     0
281
     0
  0
CLASS
  1
LAYOUT
  2
AcDbLayout
  3
ObjectDBX Classes
 90
        0
280
     0
281
     0
  0
ENDSEC
  0
SECTION
  2
TABLES
  0
TABLE
  2
VPORT
  5
8
330
0
100
AcDbSymbolTable
 70
     1
  0
VPORT
  5
29
330
8
100
AcDbSymbolTableRecord
100
AcDbViewportTableRecord
  2
*Active
 70
     0
 10
0.0
 20
0.0
 11
1.0
 21
1.0
 12
139.7
 22
107.95
 13
0.0
 23
0.0
 14
10.0
 24
10.0
 15
10.0
 25
10.0
 16
0.0
 26
0.0
 36
1.0
 17
0.0
 27
0.0
 37
0.0
 40
215.9
 41
1.2941176471
 42
50.0
 43
0.0
 44
0.0
 50
0.0
 51
0.0
 71
     0
 72
  2000
 73
     1
 74
     3
 75
     0
 76
     0
 77
     0
 78
     0
281
     0
 65
     1
110
0.0
120
0.0
130
0.0
111
1.0
121
0.0
131
0.0
112
0.0
122
1.0
132
0.0
 79
     0
146
0.0
  0
ENDTAB
  0
TABLE
  2
LTYPE
  5
5
330
0
100
AcDbSymbolTable
 70
     6
  0
LTYPE
  5
14
330
5
100
AcDbSymbolTableRecord
100
AcDbLinetypeTableRecord
  2
ByBlock
 70
     0
  3

 72
    65
 73
     0
 40
0.0
  0
LTYPE
  5
15
330
5
100
AcDbSymbolTableRecord
100
AcDbLinetypeTableRecord
  2
ByLayer
 70
     0
  3

 72
    65
 73
     0
 40
0.0
  0
LTYPE
  5
16
330
5
100
AcDbSymbolTableRecord
100
AcDbLinetypeTableRecord
  2
Continuous
 70
     0
  3
Solid line
 72
    65
 73
     0
 40
0.0
  0
LTYPE
  5
6E
330
5
100
AcDbSymbolTableRecord
100
AcDbLinetypeTableRecord
  2
HIDDEN
 70
     0
  3
Hidden __ __ __ __ __ __ __ __ __ __ __ __ __ __
 72
    65
 73
     2
 40
1.905
 49
1.27
 74
     0
 49
-0.635
 74
     0
  0
LTYPE
  5
6F
330
5
100
AcDbSymbolTableRecord
100
AcDbLinetypeTableRecord
  2
PHANTOM
 70
     0
  3
Phantom ______  __  __  ______  __  __  ______
 72
    65
 73
     6
 40
12.7
 49
6.35
 74
     0
 49
-1.27
 74
     0
 49
1.27
 74
     0
 49
-1.27
 74
     0
 49
1.27
 74
     0
 49
-1.27
 74
     0
  0
LTYPE
  5
70
330
5
100
AcDbSymbolTableRecord
100
AcDbLinetypeTableRecord
  2
CENTER
 70
     0
  3
Center ____ _ ____ _ ____ _ ____ _ ____ _ ____
 72
    65
 73
     4
 40
10.16
 49
6.35
 74
     0
 49
-1.27
 74
     0
 49
1.27
 74
     0
 49
-1.27
 74
     0
  0
LTYPE
  5
71
330
5
100
AcDbSymbolTableRecord
100
AcDbLinetypeTableRecord
  2
CENTERX2
 70
     0
  3
Center (2x) ________  __  ________  __  _____
 72
    65
 73
     4
 40
20.32
 49
12.7
 74
     0
 49
-2.54
 74
     0
 49
2.54
 74
     0
 49
-2.54
 74
     0
  0
LTYPE
  5
72
330
5
100
AcDbSymbolTableRecord
100
AcDbLinetypeTableRecord
  2
DOT2
 70
     0
  3
Dot (.5x) ........................................
 72
    65
 73
     2
 40
0.635
 49
0.0
 74
     0
 49
-0.635
 74
     0
  0
ENDTAB
  0
TABLE
  2
LAYER
  5
2
330
0
100
AcDbSymbolTable
 70
    17
  0
LAYER
  5
10
330
2
100
AcDbSymbolTableRecord
100
AcDbLayerTableRecord
  2
0
 70
     0
 62
     7
  6
Continuous
370
    -3
390
F
  0
LAYER
  5
73
330
2
100
AcDbSymbolTableRecord
100
AcDbLayerTableRecord
  2
FORMAT
 70
     0
 62
     7
  6
Continuous
370
    -3
390
F
  0
LAYER
  5
74
330
2
100
AcDbSymbolTableRecord
100
AcDbLayerTableRecord
  2
YARDIMCI_GEOMETRI
 70
     0
 62
    -6
  6
Continuous
290
     0
370
    -3
390
F
  0
LAYER
  5
75
330
2
100
AcDbSymbolTableRecord
100
AcDbLayerTableRecord
  2
SAYFA_CERCEVESI
 70
     0
 62
     7
  6
Continuous
370
    25
390
F
  0
LAYER
  5
76
330
2
100
AcDbSymbolTableRecord
100
AcDbLayerTableRecord
  2
ANTET
 70
     0
 62
     7
  6
Continuous
370
    -3
390
F
  0
LAYER
  5
77
330
2
100
AcDbSymbolTableRecord
100
AcDbLayerTableRecord
  2
OLCU
 70
     0
 62
   150
  6
Continuous
370
    -3
390
F
  0
LAYER
  5
78
330
2
100
AcDbSymbolTableRecord
100
AcDbLayerTableRecord
  2
METIN
 70
     0
 62
    96
  6
Continuous
370
    -3
390
F
  0
LAYER
  5
79
330
2
100
AcDbSymbolTableRecord
100
AcDbLayerTableRecord
  2
BALON
 70
     0
 62
     5
  6
Continuous
370
    -3
390
F
  0
LAYER
  5
7A
330
2
100
AcDbSymbolTableRecord
100
AcDbLayerTableRecord
  2
VURGU
 70
     0
 62
     7
  6
Continuous
370
    -3
390
F
  0
LAYER
  5
7B
330
2
100
AcDbSymbolTableRecord
100
AcDbLayerTableRecord
  2
SILIK
 70
     0
 62
     7
  6
Continuous
370
    -3
390
F
  0
LAYER
  5
7C
330
2
100
AcDbSymbolTableRecord
100
AcDbLayerTableRecord
  2
MODEL
 70
     0
 62
     7
  6
Continuous
370
    -3
390
F
  0
LAYER
  5
7D
330
2
100
AcDbSymbolTableRecord
100
AcDbLayerTableRecord
  2
DETAYLANDıRMA
 70
     0
 62
   190
  6
Continuous
370
    -3
390
F
  0
LAYER
  5
7E
330
2
100
AcDbSymbolTableRecord
100
AcDbLayerTableRecord
  2
TOLERANS
 70
     0
 62
   230
  6
Continuous
370
    -3
390
F
  0
LAYER
  5
7F
330
2
100
AcDbSymbolTableRecord
100
AcDbLayerTableRecord
  2
MERKEZ_CIZGILERI
 70
     0
 62
    30
  6
Continuous
370
    -3
390
F
  0
LAYER
  5
80
330
2
100
AcDbSymbolTableRecord
100
AcDbLayerTableRecord
  2
KESIT-DETAY_CIZGILERI
 70
     0
 62
     7
  6
Continuous
370
    -3
390
F
  0
LAYER
  5
81
330
2
100
AcDbSymbolTableRecord
100
AcDbLayerTableRecord
  2
\U+041E\U+0421\U+0415\U+0412\U+042B\U+0415
 70
     0
 62
     7
  6
Continuous
370
    -3
390
F
  0
LAYER
  5
82
330
2
100
AcDbSymbolTableRecord
100
AcDbLayerTableRecord
  2
\U+0412\U+041E\U+0414\U+042F\U+041D\U+042B\U+0415_\U+0417\U+041D\U+0410\U+041A\U+0418
 70
     0
 62
    11
  6
Continuous
370
    -3
390
F
  0
ENDTAB
  0
TABLE
  2
STYLE
  5
3
330
0
100
AcDbSymbolTable
 70
     1
  0
STYLE
  5
11
330
3
100
AcDbSymbolTableRecord
100
AcDbTextStyleTableRecord
  2
Standard
 70
     0
 40
0.0
 41
1.0
 50
0.0
 71
     0
 42
3.5
  3
txt
  4

  0
ENDTAB
  0
TABLE
  2
VIEW
  5
6
330
0
100
AcDbSymbolTable
 70
     0
  0
ENDTAB
  0
TABLE
  2
UCS
  5
7
330
0
100
AcDbSymbolTable
 70
     0
  0
ENDTAB
  0
TABLE
  2
APPID
  5
9
330
0
100
AcDbSymbolTable
 70
     1
  0
APPID
  5
12
330
9
100
AcDbSymbolTableRecord
100
AcDbRegAppTableRecord
  2
ACAD
 70
     0
  0
ENDTAB
  0
TABLE
  2
DIMSTYLE
  5
A
330
0
100
AcDbSymbolTable
 70
     1
100
AcDbDimStyleTable
  0
DIMSTYLE
105
27
330
A
100
AcDbSymbolTableRecord
100
AcDbDimStyleTableRecord
  2
ISO-25
 70
     0
 41
2.5
 42
0.625
 43
3.75
 44
1.25
 73
     0
 74
     0
 77
     1
 78
     8
140
2.5
141
2.5
143
0.0393700787
147
0.625
171
     3
172
     1
178
     0
271
     2
272
     2
274
     3
278
    44
283
     0
284
     8
340
11
  0
ENDTAB
  0
TABLE
  2
BLOCK_RECORD
  5
1
330
0
100
AcDbSymbolTable
 70
     1
  0
BLOCK_RECORD
  5
1F
330
1
100
AcDbSymbolTableRecord
100
AcDbBlockTableRecord
  2
*Model_Space
340
22
  0
BLOCK_RECORD
  5
1B
330
1
100
AcDbSymbolTableRecord
100
AcDbBlockTableRecord
  2
*Paper_Space
340
1E
  0
BLOCK_RECORD
  5
23
330
1
100
AcDbSymbolTableRecord
100
AcDbBlockTableRecord
  2
*Paper_Space0
340
26
  0
ENDTAB
  0
ENDSEC
  0
SECTION
  2
BLOCKS
  0
BLOCK
  5
20
330
1F
100
AcDbEntity
  8
0
100
AcDbBlockBegin
  2
*Model_Space
 70
     0
 10
0.0
 20
0.0
 30
0.0
  3
*Model_Space
  1

  0
ENDBLK
  5
21
330
1F
100
AcDbEntity
  8
0
100
AcDbBlockEnd
  0
BLOCK
  5
1C
330
1B
100
AcDbEntity
 67
     1
  8
0
100
AcDbBlockBegin
  2
*Paper_Space
 70
     0
 10
0.0
 20
0.0
 30
0.0
  3
*Paper_Space
  1

  0
ENDBLK
  5
1D
330
1B
100
AcDbEntity
 67
     1
  8
0
100
AcDbBlockEnd
  0
BLOCK
  5
24
330
23
100
AcDbEntity
  8
0
100
AcDbBlockBegin
  2
*Paper_Space0
 70
     0
 10
0.0
 20
0.0
 30
0.0
  3
*Paper_Space0
  1

  0
ENDBLK
  5
25
330
23
100
AcDbEntity
  8
0
100
AcDbBlockEnd
  0
ENDSEC
  0
SECTION
  2
ENTITIES
  0
CIRCLE
  5
83
330
1F
100
AcDbEntity
  8
0
  6
Continuous
 62
     7
370
    25
100
AcDbCircle
 10
135.9944086538
 20
107.7286453149
 30
0.0
 40
157.5
  0
CIRCLE
  5
84
330
1F
100
AcDbEntity
  8
0
  6
Continuous
 62
     7
370
    25
100
AcDbCircle
 10
135.9944086538
 20
107.7286453149
 30
0.0
 40
138.8
  0
CIRCLE
  5
85
330
1F
100
AcDbEntity
  8
0
  6
Continuous
 62
     7
370
    25
100
AcDbCircle
 10
135.9944086538
 20
107.7286453149
 30
0.0
 40
169.0
  0
CIRCLE
  5
86
330
1F
100
AcDbEntity
  8
0
  6
Continuous
 62
     7
370
    25
100
AcDbCircle
 10
135.9944086538
 20
107.7286453149
 30
0.0
 40
187.5
  0
LINE
  5
87
330
1F
100
AcDbEntity
  8
0
  6
Continuous
 62
     7
370
    25
100
AcDbLine
 10
323.4944086538
 20
446.6803981566
 30
0.0
 11
323.4944086538
 21
471.6803981566
 31
0.0
  0
LINE
  5
88
330
1F
100
AcDbEntity
  8
0
  6
Continuous
 62
     7
370
    25
100
AcDbLine
 10
-51.5055913462
 20
471.6803981566
 30
0.0
 11
-51.5055913462
 21
446.6803981566
 31
0.0
  0
LINE
  5
89
330
1F
100
AcDbEntity
  8
0
  6
Continuous
 62
     7
370
    25
100
AcDbLine
 10
304.9944086538
 20
471.6803981566
 30
0.0
 11
293.4944086538
 21
509.6803981566
 31
0.0
  0
LINE
  5
8A
330
1F
100
AcDbEntity
  8
0
  6
Continuous
 62
     7
370
    25
100
AcDbLine
 10
-21.5055913462
 20
509.6803981566
 30
0.0
 11
-33.0055913462
 21
471.6803981566
 31
0.0
  0
LINE
  5
8B
330
1F
100
AcDbEntity
  8
0
  6
Continuous
 62
     7
370
    25
100
AcDbLine
 10
293.4944086538
 20
509.6803981566
 30
0.0
 11
293.4944086538
 21
566.6803981566
 31
0.0
  0
LINE
  5
8C
330
1F
100
AcDbEntity
  8
0
  6
Continuous
 62
     7
370
    25
100
AcDbLine
 10
-21.5055913462
 20
566.6803981566
 30
0.0
 11
-21.5055913462
 21
509.6803981566
 31
0.0
  0
LINE
  5
8D
330
1F
100
AcDbEntity
  8
0
  6
Continuous
 62
     7
370
    25
100
AcDbLine
 10
323.4944086538
 20
446.6803981566
 30
0.0
 11
-51.5055913462
 21
446.6803981566
 31
0.0
  0
LINE
  5
8E
330
1F
100
AcDbEntity
  8
0
  6
Continuous
 62
     7
370
    25
100
AcDbLine
 10
323.4944086538
 20
471.6803981566
 30
0.0
 11
-51.5055913462
 21
471.6803981566
 31
0.0
  0
LINE
  5
8F
330
1F
100
AcDbEntity
  8
0
  6
Continuous
 62
     7
370
    25
100
AcDbLine
 10
293.4944086538
 20
509.6803981566
 30
0.0
 11
-21.5055913462
 21
509.6803981566
 31
0.0
  0
LINE
  5
90
330
1F
100
AcDbEntity
  8
0
  6
Continuous
 62
     7
370
    25
100
AcDbLine
 10
293.4944086538
 20
566.6803981566
 30
0.0
 11
-21.5055913462
 21
566.6803981566
 31
0.0
  0
LINE
  5
91
330
1F
100
AcDbEntity
  8
0
  6
Continuous
 62
     7
370
    25
100
AcDbLine
 10
-232.3524215818
 20
295.2286453149
 30
0.0
 11
-257.3524215818
 21
295.2286453149
 31
0.0
  0
LINE
  5
92
330
1F
100
AcDbEntity
  8
0
  6
Continuous
 62
     7
370
    25
100
AcDbLine
 10
-257.3524215818
 20
-79.7713546851
 30
0.0
 11
-232.3524215818
 21
-79.7713546851
 31
0.0
  0
LINE
  5
93
330
1F
100
AcDbEntity
  8
0
  6
Continuous
 62
     7
370
    25
100
AcDbLine
 10
-257.3524215818
 20
276.7286453149
 30
0.0
 11
-295.3524215818
 21
265.2286453149
 31
0.0
  0
LINE
  5
94
330
1F
100
AcDbEntity
  8
0
  6
Continuous
 62
     7
370
    25
100
AcDbLine
 10
-295.3524215818
 20
-49.7713546851
 30
0.0
 11
-257.3524215818
 21
-61.2713546851
 31
0.0
  0
LINE
  5
95
330
1F
100
AcDbEntity
  8
0
  6
Continuous
 62
     7
370
    25
100
AcDbLine
 10
-295.3524215818
 20
265.2286453149
 30
0.0
 11
-352.3524215818
 21
265.2286453149
 31
0.0
  0
LINE
  5
96
330
1F
100
AcDbEntity
  8
0
  6
Continuous
 62
     7
370
    25
100
AcDbLine
 10
-352.3524215818
 20
-49.7713546851
 30
0.0
 11
-295.3524215818
 21
-49.7713546851
 31
0.0
  0
LINE
  5
97
330
1F
100
AcDbEntity
  8
0
  6
Continuous
 62
     7
370
    25
100
AcDbLine
 10
-232.3524215818
 20
295.2286453149
 30
0.0
 11
-232.3524215818
 21
-79.7713546851
 31
0.0
  0
LINE
  5
98
330
1F
100
AcDbEntity
  8
0
  6
Continuous
 62
     7
370
    25
100
AcDbLine
 10
-257.3524215818
 20
295.2286453149
 30
0.0
 11
-257.3524215818
 21
-79.7713546851
 31
0.0
  0
LINE
  5
99
330
1F
100
AcDbEntity
  8
0
  6
Continuous
 62
     7
370
    25
100
AcDbLine
 10
-295.3524215818
 20
265.2286453149
 30
0.0
 11
-295.3524215818
 21
-49.7713546851
 31
0.0
  0
LINE
  5
9A
330
1F
100
AcDbEntity
  8
0
  6
Continuous
 62
     7
370
    25
100
AcDbLine
 10
-352.3524215818
 20
265.2286453149
 30
0.0
 11
-352.3524215818
 21
-49.7713546851
 31
0.0
  0
LINE
  5
9B
330
1F
100
AcDbEntity
  8
0
  6
Continuous
 62
     7
370
    25
100
AcDbLine
 10
-51.5055913462
 20
-258.3278400071
 30
0.0
 11
-51.5055913462
 21
-283.3278400071
 31
0.0
  0
LINE
  5
9C
330
1F
100
AcDbEntity
  8
0
  6
Continuous
 62
     7
370
    25
100
AcDbLine
 10
323.4944086538
 20
-283.3278400071
 30
0.0
 11
323.4944086538
 21
-258.3278400071
 31
0.0
  0
LINE
  5
9D
330
1F
100
AcDbEntity
  8
0
  6
Continuous
 62
     7
370
    25
100
AcDbLine
 10
-33.0055913462
 20
-283.3278400071
 30
0.0
 11
-21.5055913462
 21
-321.3278400071
 31
0.0
  0
LINE
  5
9E
330
1F
100
AcDbEntity
  8
0
  6
Continuous
 62
     7
370
    25
100
AcDbLine
 10
293.4944086538
 20
-321.3278400071
 30
0.0
 11
304.9944086538
 21
-283.3278400071
 31
0.0
  0
LINE
  5
9F
330
1F
100
AcDbEntity
  8
0
  6
Continuous
 62
     7
370
    25
100
AcDbLine
 10
-21.5055913462
 20
-321.3278400071
 30
0.0
 11
-21.5055913462
 21
-378.3278400071
 31
0.0
  0
LINE
  5
A0
330
1F
100
AcDbEntity
  8
0
  6
Continuous
 62
     7
370
    25
100
AcDbLine
 10
293.4944086538
 20
-378.3278400071
 30
0.0
 11
293.4944086538
 21
-321.3278400071
 31
0.0
  0
LINE
  5
A1
330
1F
100
AcDbEntity
  8
0
  6
Continuous
 62
     7
370
    25
100
AcDbLine
 10
-51.5055913462
 20
-258.3278400071
 30
0.0
 11
323.4944086538
 21
-258.3278400071
 31
0.0
  0
LINE
  5
A2
330
1F
100
AcDbEntity
  8
0
  6
Continuous
 62
     7
370
    25
100
AcDbLine
 10
-51.5055913462
 20
-283.3278400071
 30
0.0
 11
323.4944086538
 21
-283.3278400071
 31
0.0
  0
LINE
  5
A3
330
1F
100
AcDbEntity
  8
0
  6
Continuous
 62
     7
370
    25
100
AcDbLine
 10
-21.5055913462
 20
-321.3278400071
 30
0.0
 11
293.4944086538
 21
-321.3278400071
 31
0.0
  0
LINE
  5
A4
330
1F
100
AcDbEntity
  8
0
  6
Continuous
 62
     7
370
    25
100
AcDbLine
 10
-21.5055913462
 20
-378.3278400071
 30
0.0
 11
293.4944086538
 21
-378.3278400071
 31
0.0
  0
LINE
  5
A5
330
1F
100
AcDbEntity
  8
0
  6
Continuous
 62
     7
370
    25
100
AcDbLine
 10
491.6982718878
 20
-79.7713546851
 30
0.0
 11
516.6982718878
 21
-79.7713546851
 31
0.0
  0
LINE
  5
A6
330
1F
100
AcDbEntity
  8
0
  6
Continuous
 62
     7
370
    25
100
AcDbLine
 10
516.6982718878
 20
295.2286453149
 30
0.0
 11
491.6982718878
 21
295.2286453149
 31
0.0
  0
LINE
  5
A7
330
1F
100
AcDbEntity
  8
0
  6
Continuous
 62
     7
370
    25
100
AcDbLine
 10
516.6982718878
 20
-61.2713546851
 30
0.0
 11
554.6982718878
 21
-49.7713546851
 31
0.0
  0
LINE
  5
A8
330
1F
100
AcDbEntity
  8
0
  6
Continuous
 62
     7
370
    25
100
AcDbLine
 10
554.6982718878
 20
265.2286453149
 30
0.0
 11
516.6982718878
 21
276.7286453149
 31
0.0
  0
LINE
  5
A9
330
1F
100
AcDbEntity
  8
0
  6
Continuous
 62
     7
370
    25
100
AcDbLine
 10
554.6982718878
 20
-49.7713546851
 30
0.0
 11
611.6982718878
 21
-49.7713546851
 31
0.0
  0
LINE
  5
AA
330
1F
100
AcDbEntity
  8
0
  6
Continuous
 62
     7
370
    25
100
AcDbLine
 10
611.6982718878
 20
265.2286453149
 30
0.0
 11
554.6982718878
 21
265.2286453149
 31
0.0
  0
LINE
  5
AB
330
1F
100
AcDbEntity
  8
0
  6
Continuous
 62
     7
370
    25
100
AcDbLine
 10
491.6982718878
 20
107.7286453149
 30
0.0
 11
491.6982718878
 21
295.2286453149
 31
0.0
  0
LINE
  5
AC
330
1F
100
AcDbEntity
  8
0
  6
Continuous
 62
     7
370
    25
100
AcDbLine
 10
491.6982718878
 20
-79.7713546851
 30
0.0
 11
491.6982718878
 21
107.7286453149
 31
0.0
  0
LINE
  5
AD
330
1F
100
AcDbEntity
  8
0
  6
Continuous
 62
     7
370
    25
100
AcDbLine
 10
516.6982718878
 20
107.7286453149
 30
0.0
 11
516.6982718878
 21
295.2286453149
 31
0.0
  0
LINE
  5
AE
330
1F
100
AcDbEntity
  8
0
  6
Continuous
 62
     7
370
    25
100
AcDbLine
 10
516.6982718878
 20
-79.7713546851
 30
0.0
 11
516.6982718878
 21
107.7286453149
 31
0.0
  0
LINE
  5
AF
330
1F
100
AcDbEntity
  8
0
  6
Continuous
 62
     7
370
    25
100
AcDbLine
 10
554.6982718878
 20
107.7286453149
 30
0.0
 11
554.6982718878
 21
265.2286453149
 31
0.0
  0
LINE
  5
B0
330
1F
100
AcDbEntity
  8
0
  6
Continuous
 62
     7
370
    25
100
AcDbLine
 10
554.6982718878
 20
-49.7713546851
 30
0.0
 11
554.6982718878
 21
107.7286453149
 31
0.0
  0
LINE
  5
B1
330
1F
100
AcDbEntity
  8
0
  6
Continuous
 62
     7
370
    25
100
AcDbLine
 10
611.6982718878
 20
107.7286453149
 30
0.0
 11
611.6982718878
 21
265.2286453149
 31
0.0
  0
LINE
  5
B2
330
1F
100
AcDbEntity
  8
0
  6
Continuous
 62
     7
370
    25
100
AcDbLine
 10
611.6982718878
 20
-49.7713546851
 30
0.0
 11
611.6982718878
 21
107.7286453149
 31
0.0
  0
LINE
  5
B3
330
1F
100
AcDbEntity
  8
0
  6
Continuous
 62
     7
370
    25
100
AcDbLine
 10
649.9589640088
 20
-183.258909359
 30
0.0
 11
609.6538774812
 21
-159.991278172
 31
0.0
  0
LINE
  5
B4
330
1F
100
AcDbEntity
  8
0
  6
Continuous
 62
     7
370
    25
100
AcDbLine
 10
452.166677091
 20
-432.7966698219
 30
0.0
 11
492.4717636186
 21
-456.0643010089
 31
0.0
  0
LINE
  5
B5
330
1F
100
AcDbEntity
  8
0
  6
Continuous
 62
     7
370
    25
100
AcDbLine
 10
662.5356343904
 20
-181.7616662973
 30
0.0
 11
641.4328575165
 21
-178.336892849
 31
0.0
  0
LINE
  5
B6
330
1F
100
AcDbEntity
  8
0
  6
Continuous
 62
     7
370
    25
100
AcDbLine
 10
483.9456571263
 20
-451.1422844989
 30
0.0
 11
497.4645405687
 21
-467.7041701232
 31
0.0
  0
LINE
  5
B7
330
1F
100
AcDbEntity
  8
0
  6
Continuous
 62
     7
370
    25
100
AcDbLine
 10
709.5054722131
 20
-182.99429901
 30
0.0
 11
691.8278026834
 21
-172.7891976122
 31
0.0
  0
LINE
  5
B8
330
1F
100
AcDbEntity
  8
0
  6
Continuous
 62
     7
370
    25
100
AcDbLine
 10
504.3430403142
 20
-497.5575210049
 30
0.0
 11
522.0207098438
 21
-507.7626224027
 31
0.0
  0
LWPOLYLINE
  5
B9
330
1F
100
AcDbEntity
  8
0
  6
Continuous
 62
     7
370
    25
100
AcDbPolyline
 90
      134
 70
   128
 43
0.0
 10
419.5409592492
 20
-360.686112803
 10
419.6652134974
 20
-354.5410768709
 10
420.0376989824
 20
-348.2662920155
 10
420.6575845432
 20
-341.8757597353
 10
421.5234869728
 20
-335.3837398066
 10
422.6334741044
 20
-328.8047184646
 10
423.9850691226
 20
-322.1533760783
 10
425.5752560904
 20
-315.4445543935
 10
427.4004866788
 20
-308.6932234146
 10
429.4566880848
 20
-301.914448001
 10
431.739272119
 20
-295.1233542512
 10
434.2431454439
 20
-288.3350957509
 10
436.9627209389
 20
-281.5648197592
 10
439.8919301678
 20
-274.8276334091
 10
443.0242369193
 20
-268.1385699979
 10
446.3526517924
 20
-261.5125554414
 10
449.8697477919
 20
-254.9643749692
 10
453.5676769014
 20
-248.5086401323
 10
457.4381875951
 20
-242.1597561995
 10
461.4726432501
 20
-235.9318900135
 10
465.6620414184
 20
-229.8389383789
 10
469.9970339145
 20
-223.8944970533
 10
474.4679476749
 20
-218.1118304096
 10
479.064806343
 20
-212.5038418385
 10
483.7773525296
 20
-207.0830449551
 10
488.5950707013
 20
-201.8615356771
 10
493.5072106451
 20
-196.8509652333
 10
498.502811456
 20
-192.0625141656
 10
503.5707259953
 20
-187.5068673808
 10
508.6996457638
 20
-183.1941903082
 10
513.8781261362
 20
-179.1341062167
 10
519.0946118978
 20
-175.3356747415
 10
524.337463029
 20
-171.8073716685
 10
529.5949806789
 20
-168.5570700215
 10
534.8554332699
 20
-165.5920224945
 10
540.1070826753
 20
-162.9188452677
 10
545.3382104116
 20
-160.543503245
 10
550.5371437875
 20
-158.4712967432
 10
555.6922819497
 20
-156.7068496653
 10
560.7921217692
 20
-155.2540991826
 10
565.8252835091
 20
-154.1162869495
 10
570.7805362176
 20
-153.29595187
 10
575.6468227882
 20
-152.7949244325
 10
580.4132846328
 20
-152.6143226251
 10
585.0692859112
 20
-152.754549441
 10
589.604437264
 20
-153.2152919794
 10
594.0086189951
 20
-153.9955221435
 10
598.2720036529
 20
-155.0934989348
 10
602.3850779592
 20
-156.5067723376
 10
606.338664037
 20
-158.2321887864
 10
610.1239398897
 20
-160.2658982025
 10
613.7324590868
 20
-162.6033625848
 10
617.1561696109
 20
-165.2393661363
 10
620.3874318251
 20
-168.1680269025
 10
623.4190355199
 20
-171.3828098959
 10
626.2442160021
 20
-174.8765416786
 10
628.8566691893
 20
-178.6414263689
 10
631.2505656768
 20
-182.6690630369
 10
633.4205637456
 20
-186.9504644503
 10
635.3618212815
 20
-191.4760771284
 10
637.0700065798
 20
-196.2358026597
 10
638.5413080111
 20
-201.2190202354
 10
639.7724425267
 20
-206.4146103485
 10
640.760662984
 20
-211.8109796059
 10
641.5037642769
 20
-217.3960865976
 10
642.0000882556
 20
-223.1574687662
 10
642.2485274275
 20
-229.082270215
 10
642.2485274275
 20
-235.1572703954
 10
642.0000882556
 20
-241.3689136065
 10
641.5037642769
 20
-247.7033392434
 10
640.760662984
 20
-254.1464127255
 10
639.7724425267
 20
-260.6837570366
 10
638.5413080111
 20
-267.3007848053
 10
637.0700065798
 20
-273.9827308551
 10
635.3618212815
 20
-280.7146851517
 10
633.4205637456
 20
-287.4816260727
 10
631.2505656768
 20
-294.2684539269
 10
628.8566691893
 20
-301.0600246474
 10
626.2442160021
 20
-307.8411835844
 10
623.4190355199
 20
-314.5967993207
 10
620.3874318251
 20
-321.3117974359
 10
617.1561696109
 20
-327.9711941437
 10
613.7324590868
 20
-334.5601297259
 10
610.1239398897
 20
-341.0639016908
 10
606.338664037
 20
-347.46799758
 10
602.3850779592
 20
-353.7581273516
 10
598.2720036529
 20
-359.9202552663
 10
594.0086189951
 20
-365.9406312073
 10
589.604437264
 20
-371.8058213617
 10
585.0692859112
 20
-377.5027381969
 10
580.4132846328
 20
-383.0186696637
 10
575.6468227882
 20
-388.3413075623
 10
570.7805362176
 20
-393.4587750063
 10
565.8252835091
 20
-398.3596529246
 10
560.7921217692
 20
-403.0330055423
 10
555.6922819497
 20
-407.4684047823
 10
550.5371437875
 20
-411.6559535347
 10
545.3382104116
 20
-415.5863077406
 10
540.1070826753
 20
-419.250697243
 10
534.8554332699
 20
-422.640945356
 10
529.5949806789
 20
-425.7494871105
 10
524.337463029
 20
-428.5693861343
 10
519.0946118978
 20
-431.09435013
 10
513.8781261362
 20
-433.3187449156
 10
508.6996457638
 20
-435.2376069966
 10
503.5707259953
 20
-436.8466546414
 10
498.502811456
 20
-438.1422974354
 10
493.5072106451
 20
-439.121644293
 10
488.5950707013
 20
-439.7825099084
 10
483.7773525296
 20
-440.123419632
 10
479.064806343
 20
-440.1436127609
 10
474.4679476749
 20
-439.8430442363
 10
469.9970339145
 20
-439.2223847441
 10
465.6620414184
 20
-438.2830192184
 10
461.4726432501
 20
-437.027043751
 10
457.4381875951
 20
-435.4572609141
 10
453.5676769014
 20
-433.5771735073
 10
449.8697477919
 20
-431.3909767406
 10
446.3526517924
 20
-428.9035488738
 10
443.0242369193
 20
-426.1204403313
 10
439.8919301678
 20
-423.0478613163
 10
436.9627209389
 20
-419.6926679541
 10
434.2431454439
 20
-416.0623469932
 10
431.739272119
 20
-412.164999099
 10
429.4566880848
 20
-408.0093207787
 10
427.4004866788
 20
-403.6045849756
 10
425.5752560904
 20
-398.9606203775
 10
423.9850691226
 20
-394.0877894856
 10
422.6334741044
 20
-388.9969654907
 10
421.5234869728
 20
-383.6995080119
 10
420.6575845432
 20
-378.2072377483
 10
420.0376989824
 20
-372.5324101024
 10
419.6652134974
 20
-366.6876878337
 10
419.5409592492
 20
-360.686112803
  0
LWPOLYLINE
  5
BA
330
1F
100
AcDbEntity
  8
0
  6
Continuous
 62
     7
370
    25
100
AcDbPolyline
 90
      126
 70
   128
 43
0.0
 10
432.7638560574
 20
-353.0526969575
 10
432.8878192464
 20
-347.2866512851
 10
433.2593956715
 20
-341.392046293
 10
433.8776466986
 20
-335.383772265
 10
434.7410105717
 20
-329.2770066227
 10
435.8473063589
 20
-323.0871755861
 10
437.193739461
 20
-316.8299152057
 10
438.7769086712
 20
-310.5210318642
 10
440.5928147665
 20
-304.1764623485
 10
442.6368706106
 20
-297.8122335918
 10
444.903912741
 20
-291.4444221882
 10
447.3882144126
 20
-285.0891137821
 10
450.0835000637
 20
-278.762362434
 10
452.9829611689
 20
-272.4801500669
 10
456.0792734377
 20
-266.2583460945
 10
459.3646153167
 20
-260.1126673336
 10
462.8306877471
 20
-254.0586383022
 10
466.4687351292
 20
-248.1115520028
 10
470.2695674395
 20
-242.2864312918
 10
474.2235834458
 20
-236.5979909295
 10
478.3207949605
 20
-231.06060041
 10
482.5508520716
 20
-225.6882476624
 10
486.9030692878
 20
-220.4945037159
 10
491.3664525308
 20
-215.4924884184
 10
495.929726907
 20
-210.6948372948
 10
500.5813651893
 20
-206.1136696282
 10
505.3096169358
 20
-201.7605578457
 10
510.1025381722
 20
-197.6464982854
 10
514.9480215634
 20
-193.7818834188
 10
519.8338269979
 20
-190.1764755985
 10
524.7476125072
 20
-186.8393823976
 10
529.6769654425
 20
-183.7790336031
 10
534.6094338306
 20
-181.0031599217
 10
539.5325578282
 20
-178.5187734511
 10
544.4339011968
 20
-176.3321499673
 10
549.3010827178
 20
-174.4488130708
 10
554.1218074681
 20
-172.8735202343
 10
558.8838978788
 20
-171.610250784
 10
563.575324496
 20
-170.6621958483
 10
568.184236369
 20
-170.0317502963
 10
572.6989909865
 20
-169.720506688
 10
577.1081836864
 20
-169.7292512518
 10
581.4006764653
 20
-170.0579618983
 10
585.5656261139
 20
-170.7058082758
 10
589.592511608
 20
-171.6711538681
 10
593.4711606852
 20
-172.9515601285
 10
597.1917755415
 20
-174.5437926397
 10
600.7449575807
 20
-176.4438292841
 10
604.1217311567
 20
-178.6468704043
 10
607.3135662463
 20
-181.1473509271
 10
610.3123999972
 20
-183.9389544219
 10
613.1106570949
 20
-187.0146290559
 10
615.7012688992
 20
-190.366605408
 10
618.0776912999
 20
-193.986416095
 10
620.2339212477
 20
-197.8649171611
 10
622.1645119186
 20
-201.9923111758
 10
623.8645864731
 20
-206.3581719838
 10
625.3298503752
 20
-210.9514710417
 10
626.5566022413
 20
-215.7606052774
 10
627.5417431895
 20
-220.7734264005
 10
628.2827846685
 20
-225.9772715898
 10
628.777854743
 20
-231.3589954807
 10
629.0257028231
 20
-236.9050033716
 10
629.0257028231
 20
-242.6012855652
 10
628.777854743
 20
-248.4334527583
 10
628.2827846685
 20
-254.3867723905
 10
627.5417431895
 20
-260.4462058597
 10
626.5566022413
 20
-266.596446511
 10
625.3298503752
 20
-272.8219583028
 10
623.8645864731
 20
-279.1070150521
 10
622.1645119186
 20
-285.4357401599
 10
620.2339212477
 20
-291.7921467174
 10
618.0776912999
 20
-298.1601778901
 10
615.7012688992
 20
-304.5237474784
 10
613.1106570949
 20
-310.8667805533
 10
610.3123999972
 20
-317.1732540628
 10
607.3135662463
 20
-323.4272373075
 10
604.1217311567
 20
-329.6129321828
 10
600.7449575807
 20
-335.7147130868
 10
597.1917755415
 20
-341.7171663913
 10
593.4711606852
 20
-347.6051293783
 10
589.592511608
 20
-353.3637285423
 10
585.5656261139
 20
-358.978417162
 10
581.4006764653
 20
-364.4350120467
 10
577.1081836864
 20
-369.7197293642
 10
572.6989909865
 20
-374.8192194598
 10
568.184236369
 20
-379.720600579
 10
563.575324496
 20
-384.4114914077
 10
558.8838978788
 20
-388.8800423485
 10
554.1218074681
 20
-393.114965454
 10
549.3010827178
 20
-397.1055629409
 10
544.4339011968
 20
-400.8417542136
 10
539.5325578282
 20
-404.3141013286
 10
534.6094338306
 20
-407.5138328358
 10
529.6769654425
 20
-410.4328659357
 10
524.7476125072
 20
-413.0638268974
 10
519.8338269979
 20
-415.4000696851
 10
514.9480215634
 20
-417.4356927468
 10
510.1025381722
 20
-419.165553922
 10
505.3096169358
 20
-420.5852834312
 10
500.5813651893
 20
-421.6912949145
 10
495.929726907
 20
-422.4807944908
 10
491.3664525308
 20
-422.9517878157
 10
486.9030692878
 20
-423.1030851192
 10
482.5508520716
 20
-422.9343042113
 10
478.3207949605
 20
-422.445871447
 10
474.2235834458
 20
-421.6390206499
 10
470.2695674395
 20
-420.5157899953
 10
466.4687351292
 20
-419.0790168611
 10
462.8306877471
 20
-417.3323306611
 10
459.3646153167
 20
-415.2801436762
 10
456.0792734377
 20
-412.9276399088
 10
452.9829611689
 20
-410.2807619876
 10
450.0835000637
 20
-407.3461961559
 10
447.3882144126
 20
-404.1313553817
 10
444.903912741
 20
-400.6443606318
 10
442.6368706106
 20
-396.8940203576
 10
440.5928147665
 20
-392.8898082441
 10
438.7769086712
 20
-388.6418392786
 10
437.193739461
 20
-384.1608441994
 10
435.8473063589
 20
-379.458142389
 10
434.7410105717
 20
-374.5456132802
 10
433.8776466986
 20
-369.435666348
 10
433.2593956715
 20
-364.1412097618
 10
432.8878192464
 20
-358.6756177784
 10
432.7638560574
 20
-353.0526969575
  0
LWPOLYLINE
  5
BB
330
1F
100
AcDbEntity
  8
0
  6
Continuous
 62
     7
370
    25
100
AcDbPolyline
 90
       69
 70
   128
 43
0.0
 10
649.9589640088
 20
-183.258909359
 10
650.4290264173
 20
-183.5335293894
 10
654.0375456144
 20
-185.8709937717
 10
657.4612561385
 20
-188.5069973233
 10
660.6925183527
 20
-191.4356580894
 10
663.7241220476
 20
-194.6504410828
 10
666.5493025298
 20
-198.1441728655
 10
669.1617557169
 20
-201.9090575558
 10
671.5556522045
 20
-205.9366942238
 10
673.7256502733
 20
-210.2180956372
 10
675.6669078091
 20
-214.7437083153
 10
677.3750931074
 20
-219.5034338466
 10
678.8463945387
 20
-224.4866514223
 10
680.0775290543
 20
-229.6822415354
 10
681.0657495117
 20
-235.0786107928
 10
681.8088508045
 20
-240.6637177846
 10
682.3051747833
 20
-246.4250999531
 10
682.5536139551
 20
-252.349901402
 10
682.5536139551
 20
-258.4249015824
 10
682.3051747833
 20
-264.6365447934
 10
681.8088508045
 20
-270.9709704303
 10
681.0657495116
 20
-277.4140439125
 10
680.0775290543
 20
-283.9513882236
 10
678.8463945387
 20
-290.5684159922
 10
677.3750931074
 20
-297.2503620421
 10
675.6669078091
 20
-303.9823163387
 10
673.7256502733
 20
-310.7492572597
 10
671.5556522045
 20
-317.5360851138
 10
669.1617557169
 20
-324.3276558343
 10
666.5493025298
 20
-331.1088147713
 10
663.7241220476
 20
-337.8644305076
 10
660.6925183527
 20
-344.5794286229
 10
657.4612561385
 20
-351.2388253306
 10
654.0375456144
 20
-357.8277609128
 10
650.4290264173
 20
-364.3315328777
 10
646.6437505646
 20
-370.735628767
 10
642.6901644869
 20
-377.0257585385
 10
638.5770901805
 20
-383.1878864532
 10
634.3137055227
 20
-389.2082623942
 10
629.9095237916
 20
-395.0734525486
 10
625.3743724389
 20
-400.7703693838
 10
620.7183711605
 20
-406.2863008507
 10
615.9519093159
 20
-411.6089387493
 10
611.0856227452
 20
-416.7264061932
 10
606.1303700367
 20
-421.6272841115
 10
601.0972082968
 20
-426.3006367292
 10
595.9973684774
 20
-430.7360359693
 10
590.8422303152
 20
-434.9235847216
 10
585.6432969393
 20
-438.8539389275
 10
580.4121692029
 20
-442.5183284299
 10
575.1605197976
 20
-445.908576543
 10
569.9000672066
 20
-449.0171182975
 10
564.6425495566
 20
-451.8370173213
 10
559.3996984254
 20
-454.361981317
 10
554.1832126638
 20
-456.5863761026
 10
549.0047322915
 20
-458.5052381836
 10
543.8758125229
 20
-460.1142858283
 10
538.8078979836
 20
-461.4099286224
 10
533.8122971727
 20
-462.38927548
 10
528.9001572289
 20
-463.0501410954
 10
524.0824390572
 20
-463.3910508189
 10
519.3698928707
 20
-463.4112439478
 10
514.7730342026
 20
-463.1106754232
 10
510.3021204421
 20
-462.4900159311
 10
505.967127946
 20
-461.5506504054
 10
501.7777297778
 20
-460.2946749379
 10
497.7432741227
 20
-458.7248921011
 10
493.872763429
 20
-456.8448046942
 10
492.4717636186
 20
-456.0643010089
  0
LWPOLYLINE
  5
BC
330
1F
100
AcDbEntity
  8
0
  6
Continuous
 62
     7
370
    25
100
AcDbPolyline
 90
       80
 70
   128
 43
0.0
 10
662.5356343904
 20
-181.7616662973
 10
666.999323211
 20
-182.6521257647
 10
671.3714396473
 20
-183.8670068765
 10
675.5916596198
 20
-185.3954935092
 10
679.651236078
 20
-187.2344176408
 10
683.5417549299
 20
-189.3799678202
 10
687.2551524811
 20
-191.8276970671
 10
690.7837321479
 20
-194.5725320888
 10
694.1201804103
 20
-197.6087837956
 10
697.2575819697
 20
-200.9301590922
 10
700.1894340823
 20
-204.529773921
 10
702.9096600369
 20
-208.4001675307
 10
705.4126217498
 20
-212.5333179395
 10
707.6931314506
 20
-216.9206585619
 10
709.7464624346
 20
-221.5530959645
 10
711.56835886
 20
-226.4210287135
 10
713.1550445681
 20
-231.5143672749
 10
714.5032309105
 20
-236.8225549266
 10
715.6101235652
 20
-242.3345896393
 10
716.473428328
 20
-248.0390468792
 10
717.091355868
 20
-253.9241032875
 10
717.4626254361
 20
-259.9775611863
 10
717.5864675193
 20
-266.1868738595
 10
717.4626254361
 20
-272.5391715586
 10
717.091355868
 20
-279.0212881764
 10
716.473428328
 20
-285.6197885364
 10
715.6101235652
 20
-292.320996239
 10
714.5032309105
 20
-299.1110220079
 10
713.1550445681
 20
-305.9757924778
 10
711.56835886
 20
-312.9010793636
 10
709.7464624346
 20
-319.8725289507
 10
707.6931314506
 20
-326.8756918453
 10
705.4126217498
 20
-333.8960529228
 10
702.9096600369
 20
-340.9190614128
 10
700.1894340823
 20
-347.9301610578
 10
697.2575819697
 20
-354.9148202832
 10
694.1201804103
 20
-361.858562316
 10
690.7837321479
 20
-368.7469951906
 10
687.2551524811
 20
-375.5658415779
 10
683.5417549299
 20
-382.3009683776
 10
679.651236078
 20
-388.9384160107
 10
675.5916596198
 20
-395.4644273535
 10
671.3714396473
 20
-401.865476251
 10
666.999323211
 20
-408.1282955518
 10
662.4843721898
 20
-414.2399046065
 10
657.8359445091
 20
-420.1876361721
 10
653.0636747452
 20
-425.9591626667
 10
648.1774541558
 20
-431.5425217202
 10
643.1874101795
 20
-436.9261409684
 10
638.1038854442
 20
-442.0988620384
 10
632.9374163313
 20
-447.0499636757
 10
627.698711137
 20
-451.7691839661
 10
622.3986278778
 20
-456.246741605
 10
617.0481517855
 20
-460.4733561704
 10
611.658372539
 20
-464.4402673582
 10
606.2404612789
 20
-468.1392531391
 10
600.8056474534
 20
-471.5626468003
 10
595.3651955442
 20
-474.7033528357
 10
589.9303817188
 20
-477.5548616523
 10
584.5124704586
 20
-480.1112630627
 10
579.1226912121
 20
-482.3672585346
 10
573.7722151199
 20
-484.318172173
 10
568.4721318606
 20
-485.9599604112
 10
563.2334266663
 20
-487.2892203926
 10
558.0669575534
 20
-488.3031970228
 10
552.9834328181
 20
-488.9997886804
 10
547.9933888418
 20
-489.3775515728
 10
543.1071682525
 20
-489.4357027288
 10
538.3348984885
 20
-489.1741216211
 10
533.6864708079
 20
-488.5933504167
 10
529.1715197866
 20
-487.6945928524
 10
524.7994033503
 20
-486.4797117406
 10
520.5791833778
 20
-484.9512251079
 10
516.5196069196
 20
-483.1123009763
 10
512.6290880677
 20
-480.9667507969
 10
508.9156905166
 20
-478.51902155
 10
505.3871108497
 20
-475.7741865283
 10
502.0506625873
 20
-472.7379348215
 10
498.9132610279
 20
-469.4165595249
 10
497.4645405687
 20
-467.7041701232
  0
LWPOLYLINE
  5
BD
330
1F
100
AcDbEntity
  8
0
  6
Continuous
 62
     7
370
    25
100
AcDbPolyline
 90
      101
 70
   128
 43
0.0
 10
625.9574132908
 20
-169.4031090585
 10
630.7790459258
 20
-167.926146248
 10
636.3143108847
 20
-166.5054135646
 10
641.7778050983
 20
-165.4013373256
 10
647.1592714269
 20
-164.6159903187
 10
652.44860673
 20
-164.1508469508
 10
657.6358808331
 20
-164.0067804802
 10
662.7113551711
 20
-164.1840613764
 10
667.6655010713
 20
-164.6823568132
 10
672.4890176423
 20
-165.500731293
 10
677.1728492359
 20
-166.637648403
 10
681.7082024475
 20
-168.0909737004
 10
686.0865626255
 20
-169.8579787186
 10
690.2997098561
 20
-171.9353460904
 10
694.3397343956
 20
-174.3191757757
 10
698.1990515201
 20
-177.0049923832
 10
701.8704157648
 20
-179.9877535729
 10
705.3469345271
 20
-183.2618595223
 10
708.6220810062
 20
-186.8211634397
 10
711.6897064569
 20
-190.6589831038
 10
714.5440517328
 20
-194.7681134092
 10
717.179758099
 20
-199.1408398932
 10
719.5918772921
 20
-203.7689532186
 10
721.7758808105
 20
-208.6437645862
 10
723.7276684156
 20
-213.7561220471
 10
725.4435758303
 20
-219.0964276843
 10
726.9203816176
 20
-224.6546556321
 10
728.155313229
 20
-230.420370898
 10
729.1460522093
 20
-236.3827489544
 10
729.8907385498
 20
-242.5305960592
 10
730.3879741796
 20
-248.8523702719
 10
730.6368255908
 20
-255.3362031221
 10
730.6368255908
 20
-261.969921891
 10
730.3879741796
 20
-268.7410724648
 10
729.8907385498
 20
-275.6369427157
 10
729.1460522093
 20
-282.644586368
 10
728.155313229
 20
-289.7508473028
 10
726.9203816176
 20
-296.9423842579
 10
725.4435758303
 20
-304.2056958739
 10
723.7276684156
 20
-311.5271460422
 10
721.7758808105
 20
-318.8929895052
 10
719.5918772921
 20
-326.2893976614
 10
717.179758099
 20
-333.7024845274
 10
714.5440517328
 20
-341.118332807
 10
711.6897064569
 20
-348.5230200201
 10
708.6220810062
 20
-355.9026446401
 10
705.3469345271
 20
-363.2433521929
 10
701.8704157648
 20
-370.5313612669
 10
698.1990515201
 20
-377.7529893868
 10
694.3397343956
 20
-384.8946787003
 10
690.2997098561
 20
-391.9430214319
 10
686.0865626255
 20
-398.8847850546
 10
681.7082024475
 20
-405.7069371325
 10
677.1728492359
 20
-412.396669788
 10
672.4890176423
 20
-418.9414237469
 10
667.6655010713
 20
-425.3289119177
 10
662.7113551711
 20
-431.5471424585
 10
657.6358808331
 20
-437.5844412914
 10
652.44860673
 20
-443.4294740187
 10
647.1592714269
 20
-449.071267202
 10
641.7778050983
 20
-454.4992289642
 10
636.3143108847
 20
-459.7031688742
 10
630.7790459258
 20
-464.6733170786
 10
625.1824021031
 20
-469.4003426435
 10
619.5348865306
 20
-473.8753710723
 10
613.8471018288
 20
-478.0900009667
 10
608.129726219
 20
-482.0363197995
 10
602.3934934766
 20
-485.7069187693
 10
596.6491727793
 20
-489.0949067102
 10
590.9075484888
 20
-492.1939230288
 10
585.1793999049
 20
-494.9981496458
 10
579.475481028
 20
-497.5023219187
 10
573.8065003699
 20
-499.7017385257
 10
568.1831008493
 20
-501.592270292
 10
562.6158398113
 20
-503.1703679416
 10
557.1151692067
 20
-504.4330687612
 10
551.69141597
 20
-505.3780021619
 10
546.354762631
 20
-506.00339413
 10
541.1152281988
 20
-506.3080705574
 10
535.9826493518
 20
-506.291459446
 10
530.9666619706
 20
-505.9535919813
 10
526.0766830472
 20
-505.2951024742
 10
521.3218930063
 20
-504.3172271701
 10
516.7112184692
 20
-503.0218019275
 10
512.2533154957
 20
-501.411258772
 10
507.9565533328
 20
-499.4886213302
 10
503.8289987025
 20
-497.2574991528
 10
499.8784006574
 20
-494.7220809388
 10
496.1121760324
 20
-491.8871266708
 10
492.5373955208
 20
-488.7579586793
 10
489.1607703995
 20
-485.3404516502
 10
485.9886399293
 20
-481.6410215959
 10
483.0269594537
 20
-477.6666138097
 10
480.2812892184
 20
-473.4246898271
 10
477.7567839324
 20
-468.923213417
 10
475.4581830905
 20
-464.1706356311
 10
473.3898020756
 20
-459.1758789375
 10
471.555524057
 20
-453.9483204701
 10
469.9587927
 20
-448.4977744237
 10
468.6026057009
 20
-442.8344736289
 10
468.4702129006
 20
-442.2085007084
  0
LWPOLYLINE
  5
BE
330
1F
100
AcDbEntity
  8
0
  6
Continuous
 62
     7
370
    25
100
AcDbPolyline
 90
       74
 70
   128
 43
0.0
 10
709.5054722131
 20
-182.99429901
 10
712.0174039253
 20
-184.5242771735
 10
715.8767210497
 20
-187.210093781
 10
719.5480852945
 20
-190.1928549707
 10
723.0246040568
 20
-193.4669609201
 10
726.2997505359
 20
-197.0262648375
 10
729.3673759866
 20
-200.8640845016
 10
732.2217212625
 20
-204.973214807
 10
734.8574276287
 20
-209.345941291
 10
737.2695468218
 20
-213.9740546164
 10
739.4535503401
 20
-218.848865984
 10
741.4053379453
 20
-223.9612234449
 10
743.1212453599
 20
-229.3015290821
 10
744.5980511472
 20
-234.8597570298
 10
745.8329827586
 20
-240.6254722958
 10
746.823721739
 20
-246.5878503521
 10
747.5684080795
 20
-252.735697457
 10
748.0656437093
 20
-259.0574716697
 10
748.3144951204
 20
-265.5413045199
 10
748.3144951204
 20
-272.1750232888
 10
748.0656437093
 20
-278.9461738626
 10
747.5684080795
 20
-285.8420441135
 10
746.823721739
 20
-292.8496877658
 10
745.8329827586
 20
-299.9559487006
 10
744.5980511472
 20
-307.1474856556
 10
743.1212453599
 20
-314.4107972716
 10
741.4053379453
 20
-321.73224744
 10
739.4535503401
 20
-329.098090903
 10
737.2695468218
 20
-336.4944990592
 10
734.8574276287
 20
-343.9075859252
 10
732.2217212625
 20
-351.3234342048
 10
729.3673759866
 20
-358.7281214179
 10
726.2997505359
 20
-366.1077460379
 10
723.0246040568
 20
-373.4484535906
 10
719.5480852945
 20
-380.7364626647
 10
715.8767210497
 20
-387.9580907846
 10
712.0174039253
 20
-395.0997800981
 10
707.9773793858
 20
-402.1481228296
 10
703.7642321552
 20
-409.0898864523
 10
699.3858719772
 20
-415.9120385303
 10
694.8505187655
 20
-422.6017711858
 10
690.166687172
 20
-429.1465251447
 10
685.3431706009
 20
-435.5340133154
 10
680.3890247008
 20
-441.7522438563
 10
675.3135503628
 20
-447.7895426892
 10
670.1262762597
 20
-453.6345754164
 10
664.8369409566
 20
-459.2763685997
 10
659.4554746279
 20
-464.7043303619
 10
653.9919804144
 20
-469.908270272
 10
648.4567154555
 20
-474.8784184764
 10
642.8600716328
 20
-479.6054440413
 10
637.2125560603
 20
-484.0804724701
 10
631.5247713584
 20
-488.2951023645
 10
625.8073957487
 20
-492.2414211973
 10
620.0711630063
 20
-495.9120201671
 10
614.3268423089
 20
-499.300008108
 10
608.5852180184
 20
-502.3990244266
 10
602.8570694346
 20
-505.2032510436
 10
597.1531505577
 20
-507.7074233165
 10
591.4841698995
 20
-509.9068399235
 10
585.8607703789
 20
-511.7973716897
 10
580.2935093409
 20
-513.3754693394
 10
574.7928387364
 20
-514.638170159
 10
569.3690854996
 20
-515.5831035597
 10
564.0324321607
 20
-516.2084955278
 10
558.7928977285
 20
-516.5131719552
 10
553.6603188815
 20
-516.4965608438
 10
548.6443315002
 20
-516.1586933791
 10
543.7543525769
 20
-515.500203872
 10
538.999562536
 20
-514.5223285678
 10
534.3888879989
 20
-513.2269033253
 10
529.9309850254
 20
-511.6163601698
 10
525.6342228625
 20
-509.6937227279
 10
522.0207098438
 20
-507.7626224027
  0
LWPOLYLINE
  5
BF
330
1F
100
AcDbEntity
  8
0
  6
Continuous
 62
     7
370
    25
100
AcDbPolyline
 90
       37
 70
   128
 43
0.0
 10
507.9293068975
 20
-396.4447881008
 10
508.0532700865
 20
-390.6787424284
 10
508.4248465117
 20
-384.7841374363
 10
509.0430975387
 20
-378.7758634083
 10
509.9064614118
 20
-372.6690977661
 10
511.0127571991
 20
-366.4792667295
 10
512.3591903012
 20
-360.2220063491
 10
513.9423595113
 20
-353.9131230076
 10
515.7582656066
 20
-347.5685534919
 10
517.8023214507
 20
-341.2043247352
 10
520.0693635811
 20
-334.8365133316
 10
522.5536652527
 20
-328.4812049255
 10
525.2489509038
 20
-322.1544535774
 10
528.148412009
 20
-315.8722412103
 10
531.2447242778
 20
-309.6504372379
 10
534.5300661568
 20
-303.504758477
 10
537.9961385872
 20
-297.4507294455
 10
541.6341859693
 20
-291.5036431462
 10
545.4350182797
 20
-285.6785224352
 10
549.3890342859
 20
-279.9900820729
 10
553.4862458006
 20
-274.4526915534
 10
557.7163029117
 20
-269.0803388058
 10
562.068520128
 20
-263.8865948592
 10
566.5319033709
 20
-258.8845795618
 10
571.0951777471
 20
-254.0869284382
 10
575.7468160295
 20
-249.5057607716
 10
580.475067776
 20
-245.1526489891
 10
585.2679890123
 20
-241.0385894288
 10
590.1134724036
 20
-237.1739745622
 10
594.9992778381
 20
-233.5685667419
 10
599.9130633473
 20
-230.231473541
 10
604.8424162826
 20
-227.1711247465
 10
609.7748846707
 20
-224.395251065
 10
614.6980086683
 20
-221.9108645945
 10
619.599352037
 20
-219.7242411106
 10
624.4665335579
 20
-217.8409042142
 10
626.8331690651
 20
-217.0309373509
  0
ARC
  5
C0
330
1F
100
AcDbEntity
  8
0
  6
Continuous
 62
     7
370
    25
100
AcDbCircle
 10
617.865437188
 20
-397.1393146348
 30
0.0
 40
109.9383241202051
100
AcDbArc
 50
179.6380361064
 51
191.54872636
  0
LWPOLYLINE
  5
C1
330
1F
100
AcDbEntity
  8
0
  6
Continuous
 62
     7
370
    25
100
AcDbPolyline
 90
       33
 70
   128
 43
0.0
 10
508.0432965719
 20
-401.8397263644
 10
508.0533174771
 20
-401.5877769945
 10
508.4250639874
 20
-395.4166915275
 10
509.0436913996
 20
-389.1305165262
 10
509.9077768508
 20
-382.7437103943
 10
511.0153329168
 20
-376.2709629908
 10
512.3638121832
 20
-369.7271618421
 10
513.9501131043
 20
-363.1273579006
 10
515.7705871374
 20
-356.4867309266
 10
517.8210471337
 20
-349.8205545753
 10
520.0967769695
 20
-343.1441612656
 10
522.5925423934
 20
-336.4729069163
 10
525.3026030648
 20
-329.8221356261
 10
528.2207257574
 20
-323.2071443821
 10
531.3401986954
 20
-316.6431478761
 10
534.6538469911
 20
-310.1452435105
 10
538.1540491474
 20
-303.7283766734
 10
541.8327545869
 20
-297.4073063644
 10
545.6815021695
 20
-291.1965712476
 10
549.6914396521
 20
-285.1104562128
 10
553.8533440503
 20
-279.1629595197
 10
558.1576428504
 20
-273.3677606012
 10
562.5944360273
 20
-267.7381886006
 10
567.1535188146
 20
-262.2871917138
 10
571.8244051756
 20
-257.0273074084
 10
576.5963519222
 20
-251.9706335868
 10
581.4583834238
 20
-247.1288007609
 10
586.3993168522
 20
-242.5129453014
 10
591.4077879021
 20
-238.1336838236
 10
596.4722769298
 20
-234.0010887694
 10
601.581135448
 20
-230.1246652398
 10
606.7226129186
 20
-226.5133291331
 10
610.7886811149
 20
-223.8602156421
  0
ENDSEC
  0
SECTION
  2
OBJECTS
  0
DICTIONARY
  5
C
330
0
100
AcDbDictionary
281
     1
  3
ACAD_GROUP
350
D
  3
ACAD_LAYOUT
350
1A
  3
ACAD_MLINESTYLE
350
17
  3
ACAD_PLOTSETTINGS
350
19
  3
ACAD_PLOTSTYLENAME
350
E
  3
ACAD_SCALELIST
350
47
  0
DICTIONARY
  5
D
102
{ACAD_REACTORS
330
C
102
}
330
C
100
AcDbDictionary
281
     1
  0
DICTIONARY
  5
1A
102
{ACAD_REACTORS
330
C
102
}
330
C
100
AcDbDictionary
281
     1
  3
Layout1
350
1E
  3
Layout2
350
26
  3
Model
350
22
  0
DICTIONARY
  5
17
102
{ACAD_REACTORS
330
C
102
}
330
C
100
AcDbDictionary
281
     1
  3
Standard
350
18
  0
DICTIONARY
  5
19
102
{ACAD_REACTORS
330
C
102
}
330
C
100
AcDbDictionary
281
     1
  0
ACDBDICTIONARYWDFLT
  5
E
102
{ACAD_REACTORS
330
C
102
}
330
C
100
AcDbDictionary
281
     1
  3
Normal
350
F
100
AcDbDictionaryWithDefault
340
F
  0
DICTIONARY
  5
47
102
{ACAD_REACTORS
330
C
102
}
330
C
100
AcDbDictionary
281
     1
  3
A0
350
48
  3
A1
350
49
  3
A2
350
4A
  3
A3
350
4B
  3
A4
350
4C
  3
A5
350
4D
  3
A6
350
4E
  3
A7
350
4F
  3
A8
350
50
  3
A9
350
51
  3
B0
350
52
  3
B1
350
53
  3
B2
350
54
  3
B3
350
55
  3
B4
350
56
  3
B5
350
57
  3
B6
350
58
  3
B7
350
59
  3
B8
350
5A
  3
B9
350
5B
  3
C0
350
5C
  3
C1
350
5D
  3
C2
350
5E
  3
C3
350
5F
  3
C4
350
60
  3
C5
350
61
  3
C6
350
62
  3
C7
350
63
  3
C8
350
64
  3
C9
350
65
  3
D0
350
66
  3
D1
350
67
  3
D2
350
68
  0
LAYOUT
  5
1E
102
{ACAD_REACTORS
330
1A
102
}
330
1A
100
AcDbPlotSettings
  1

  2
none_device
  4

  6

 40
0.0
 41
0.0
 42
0.0
 43
0.0
 44
0.0
 45
0.0
 46
0.0
 47
0.0
 48
0.0
 49
0.0
140
0.0
141
0.0
142
1.0
143
1.0
 70
   688
 72
     1
 73
     0
 74
     5
  7

 75
    16
147
1.0
148
0.0
149
0.0
100
AcDbLayout
  1
Layout1
 70
     1
 71
     1
 10
0.0
 20
0.0
 11
420.0
 21
297.0
 12
0.0
 22
0.0
 32
0.0
 14
1.0000000000E+20
 24
1.0000000000E+20
 34
1.0000000000E+20
 15
-1.0000000000E+20
 25
-1.0000000000E+20
 35
-1.0000000000E+20
146
0.0
 13
0.0
 23
0.0
 33
0.0
 16
1.0
 26
0.0
 36
0.0
 17
0.0
 27
1.0
 37
0.0
 76
     0
330
1B
  0
LAYOUT
  5
26
102
{ACAD_REACTORS
330
1A
102
}
330
1A
100
AcDbPlotSettings
  1

  2
none_device
  4

  6

 40
0.0
 41
0.0
 42
0.0
 43
0.0
 44
0.0
 45
0.0
 46
0.0
 47
0.0
 48
0.0
 49
0.0
140
0.0
141
0.0
142
1.0
143
1.0
 70
   688
 72
     1
 73
     0
 74
     5
  7

 75
    16
147
1.0
148
0.0
149
0.0
100
AcDbLayout
  1
Layout2
 70
     1
 71
     2
 10
0.0
 20
0.0
 11
0.0
 21
0.0
 12
0.0
 22
0.0
 32
0.0
 14
0.0
 24
0.0
 34
0.0
 15
0.0
 25
0.0
 35
0.0
146
0.0
 13
0.0
 23
0.0
 33
0.0
 16
1.0
 26
0.0
 36
0.0
 17
0.0
 27
1.0
 37
0.0
 76
     0
330
23
  0
LAYOUT
  5
22
102
{ACAD_REACTORS
330
1A
102
}
330
1A
100
AcDbPlotSettings
  1

  2
none_device
  4
Letter_(8.50_x_11.00_Inches)
  6

 40
6.35
 41
6.35
 42
6.35000508
 43
6.35000508
 44
215.9
 45
279.4
 46
0.0
 47
0.0
 48
0.0
 49
0.0
140
0.0
141
0.0
142
1.0
143
1.0
 70
  1712
 72
     1
 73
     0
 74
     0
  7

 75
     0
147
1.0
148
0.0
149
0.0
100
AcDbLayout
  1
Model
 70
     1
 71
     0
 10
0.0
 20
0.0
 11
279.4
 21
215.9
 12
0.0
 22
0.0
 32
0.0
 14
0.0
 24
0.0
 34
0.0
 15
279.4
 25
215.9
 35
0.0
146
0.0
 13
0.0
 23
0.0
 33
0.0
 16
1.0
 26
0.0
 36
0.0
 17
0.0
 27
1.0
 37
0.0
 76
     0
330
1F
331
29
  0
MLINESTYLE
  5
18
102
{ACAD_REACTORS
330
17
102
}
330
17
100
AcDbMlineStyle
  2
Standard
 70
     0
  3

 62
   256
 51
90.0
 52
90.0
 71
     2
 49
0.5
 62
   256
  6
BYLAYER
 49
-0.5
 62
   256
  6
BYLAYER
  0
ACDBPLACEHOLDER
  5
F
102
{ACAD_REACTORS
330
E
102
}
330
E
  0
SCALE
  5
48
102
{ACAD_REACTORS
330
47
102
}
330
47
100
AcDbScale
 70
     0
300
1:1
140
1.0
141
1.0
290
     1
  0
SCALE
  5
49
102
{ACAD_REACTORS
330
47
102
}
330
47
100
AcDbScale
 70
     0
300
1:2
140
1.0
141
2.0
290
     0
  0
SCALE
  5
4A
102
{ACAD_REACTORS
330
47
102
}
330
47
100
AcDbScale
 70
     0
300
1:4
140
1.0
141
4.0
290
     0
  0
SCALE
  5
4B
102
{ACAD_REACTORS
330
47
102
}
330
47
100
AcDbScale
 70
     0
300
1:5
140
1.0
141
5.0
290
     0
  0
SCALE
  5
4C
102
{ACAD_REACTORS
330
47
102
}
330
47
100
AcDbScale
 70
     0
300
1:8
140
1.0
141
8.0
290
     0
  0
SCALE
  5
4D
102
{ACAD_REACTORS
330
47
102
}
330
47
100
AcDbScale
 70
     0
300
1:10
140
1.0
141
10.0
290
     0
  0
SCALE
  5
4E
102
{ACAD_REACTORS
330
47
102
}
330
47
100
AcDbScale
 70
     0
300
1:16
140
1.0
141
16.0
290
     0
  0
SCALE
  5
4F
102
{ACAD_REACTORS
330
47
102
}
330
47
100
AcDbScale
 70
     0
300
1:20
140
1.0
141
20.0
290
     0
  0
SCALE
  5
50
102
{ACAD_REACTORS
330
47
102
}
330
47
100
AcDbScale
 70
     0
300
1:30
140
1.0
141
30.0
290
     0
  0
SCALE
  5
51
102
{ACAD_REACTORS
330
47
102
}
330
47
100
AcDbScale
 70
     0
300
1:40
140
1.0
141
40.0
290
     0
  0
SCALE
  5
52
102
{ACAD_REACTORS
330
47
102
}
330
47
100
AcDbScale
 70
     0
300
1:50
140
1.0
141
50.0
290
     0
  0
SCALE
  5
53
102
{ACAD_REACTORS
330
47
102
}
330
47
100
AcDbScale
 70
     0
300
1:100
140
1.0
141
100.0
290
     0
  0
SCALE
  5
54
102
{ACAD_REACTORS
330
47
102
}
330
47
100
AcDbScale
 70
     0
300
2:1
140
2.0
141
1.0
290
     0
  0
SCALE
  5
55
102
{ACAD_REACTORS
330
47
102
}
330
47
100
AcDbScale
 70
     0
300
4:1
140
4.0
141
1.0
290
     0
  0
SCALE
  5
56
102
{ACAD_REACTORS
330
47
102
}
330
47
100
AcDbScale
 70
     0
300
8:1
140
8.0
141
1.0
290
     0
  0
SCALE
  5
57
102
{ACAD_REACTORS
330
47
102
}
330
47
100
AcDbScale
 70
     0
300
10:1
140
10.0
141
1.0
290
     0
  0
SCALE
  5
58
102
{ACAD_REACTORS
330
47
102
}
330
47
100
AcDbScale
 70
     0
300
100:1
140
100.0
141
1.0
290
     0
  0
SCALE
  5
59
102
{ACAD_REACTORS
330
47
102
}
330
47
100
AcDbScale
 70
     0
300
1/128" = 1'-0"
140
0.0078125
141
12.0
290
     0
  0
SCALE
  5
5A
102
{ACAD_REACTORS
330
47
102
}
330
47
100
AcDbScale
 70
     0
300
1/64" = 1'-0"
140
0.015625
141
12.0
290
     0
  0
SCALE
  5
5B
102
{ACAD_REACTORS
330
47
102
}
330
47
100
AcDbScale
 70
     0
300
1/32" = 1'-0"
140
0.03125
141
12.0
290
     0
  0
SCALE
  5
5C
102
{ACAD_REACTORS
330
47
102
}
330
47
100
AcDbScale
 70
     0
300
1/16" = 1'-0"
140
0.0625
141
12.0
290
     0
  0
SCALE
  5
5D
102
{ACAD_REACTORS
330
47
102
}
330
47
100
AcDbScale
 70
     0
300
3/32" = 1'-0"
140
0.09375
141
12.0
290
     0
  0
SCALE
  5
5E
102
{ACAD_REACTORS
330
47
102
}
330
47
100
AcDbScale
 70
     0
300
1/8" = 1'-0"
140
0.125
141
12.0
290
     0
  0
SCALE
  5
5F
102
{ACAD_REACTORS
330
47
102
}
330
47
100
AcDbScale
 70
     0
300
3/16" = 1'-0"
140
0.1875
141
12.0
290
     0
  0
SCALE
  5
60
102
{ACAD_REACTORS
330
47
102
}
330
47
100
AcDbScale
 70
     0
300
1/4" = 1'-0"
140
0.25
141
12.0
290
     0
  0
SCALE
  5
61
102
{ACAD_REACTORS
330
47
102
}
330
47
100
AcDbScale
 70
     0
300
3/8" = 1'-0"
140
0.375
141
12.0
290
     0
  0
SCALE
  5
62
102
{ACAD_REACTORS
330
47
102
}
330
47
100
AcDbScale
 70
     0
300
1/2" = 1'-0"
140
0.5
141
12.0
290
     0
  0
SCALE
  5
63
102
{ACAD_REACTORS
330
47
102
}
330
47
100
AcDbScale
 70
     0
300
3/4" = 1'-0"
140
0.75
141
12.0
290
     0
  0
SCALE
  5
64
102
{ACAD_REACTORS
330
47
102
}
330
47
100
AcDbScale
 70
     0
300
1" = 1'-0"
140
1.0
141
12.0
290
     0
  0
SCALE
  5
65
102
{ACAD_REACTORS
330
47
102
}
330
47
100
AcDbScale
 70
     0
300
1-1/2" = 1'-0"
140
1.5
141
12.0
290
     0
  0
SCALE
  5
66
102
{ACAD_REACTORS
330
47
102
}
330
47
100
AcDbScale
 70
     0
300
3" = 1'-0"
140
3.0
141
12.0
290
     0
  0
SCALE
  5
67
102
{ACAD_REACTORS
330
47
102
}
330
47
100
AcDbScale
 70
     0
300
6" = 1'-0"
140
6.0
141
12.0
290
     0
  0
SCALE
  5
68
102
{ACAD_REACTORS
330
47
102
}
330
47
100
AcDbScale
 70
     0
300
1'-0" = 1'-0"
140
12.0
141
12.0
290
     0
  0
ENDSEC
  0
EOF
